ISO-10303-21;
HEADER;
FILE_DESCRIPTION (( 'STEP AP203' ),
    '1' );
FILE_NAME ('QM-CAQWP-15-450-650-M.STEP',
    '2021-01-05T02:44:22',
    ( '' ),
    ( '' ),
    'SwSTEP 2.0',
    'SolidWorks 2020',
    '' );
FILE_SCHEMA (( 'CONFIG_CONTROL_DESIGN' ));
ENDSEC;

DATA;
#1 = PLANE ( 'NONE',  #48 ) ;
#2 = DIRECTION ( 'NONE',  ( -1.000000000000000000, -0.000000000000000000, -0.000000000000000000 ) ) ;
#3 = AXIS2_PLACEMENT_3D ( 'NONE', #304, #244, #272 ) ;
#4 = DIRECTION ( 'NONE',  ( 1.000000000000000000, 0.000000000000000000, 0.000000000000000000 ) ) ;
#5 = DIRECTION ( 'NONE',  ( 0.000000000000000000, 0.000000000000000000, 1.000000000000000000 ) ) ;
#6 = CARTESIAN_POINT ( 'NONE',  ( -1.614212418857619014, 0.000000000000000000, 7.499999999999998224 ) ) ;
#7 = ORIENTED_EDGE ( 'NONE', *, *, #125, .F. ) ;
#8 = PERSON_AND_ORGANIZATION ( #203, #256 ) ;
#9 = VERTEX_POINT ( 'NONE', #216 ) ;
#10 = CIRCLE ( 'NONE', #228, 7.500000000000000000 ) ;
#11 = AXIS2_PLACEMENT_3D ( 'NONE', #224, #249, #177 ) ;
#12 = CARTESIAN_POINT ( 'NONE',  ( -1.614212418857619014, 9.184850993605145972E-16, -7.499999999999998224 ) ) ;
#13 = CIRCLE ( 'NONE', #129, 7.499999999999998224 ) ;
#14 = APPROVAL_STATUS ( 'not_yet_approved' ) ;
#15 = CARTESIAN_POINT ( 'NONE',  ( -0.5000000000000004441, 9.184850993605145972E-16, -7.499999999999998224 ) ) ;
#16 = DIRECTION ( 'NONE',  ( 0.000000000000000000, 0.000000000000000000, -1.000000000000000000 ) ) ;
#17 = LOCAL_TIME ( 10, 44, 22.00000000000000000, #288 ) ;
#18 = ADVANCED_FACE ( 'NONE', ( #235, #265 ), #1, .F. ) ;
#19 = FACE_OUTER_BOUND ( 'NONE', #293, .T. ) ;
#20 = CIRCLE ( 'NONE', #3, 7.499999999999997335 ) ;
#21 = PLANE ( 'NONE',  #97 ) ;
#22 = APPROVAL ( #44, 'UNSPECIFIED' ) ;
#23 = AXIS2_PLACEMENT_3D ( 'NONE', #222, #325, #273 ) ;
#24 = AXIS2_PLACEMENT_3D ( 'NONE', #96, #152, #197 ) ;
#25 = AXIS2_PLACEMENT_3D ( 'NONE', #279, #106, #258 ) ;
#26 = ORIENTED_EDGE ( 'NONE', *, *, #298, .F. ) ;
#27 = DIRECTION ( 'NONE',  ( -0.000000000000000000, 0.000000000000000000, 1.000000000000000000 ) ) ;
#28 = ORIENTED_EDGE ( 'NONE', *, *, #215, .F. ) ;
#29 =( NAMED_UNIT ( * ) PLANE_ANGLE_UNIT ( ) SI_UNIT ( $, .RADIAN. ) );
#30 = AXIS2_PLACEMENT_3D ( 'NONE', #119, #126, #69 ) ;
#31 = ORIENTED_EDGE ( 'NONE', *, *, #240, .T. ) ;
#32 = DATE_AND_TIME ( #62, #174 ) ;
#33 = CC_DESIGN_APPROVAL ( #115, ( #54 ) ) ;
#34 = VERTEX_POINT ( 'NONE', #84 ) ;
#35 = EDGE_CURVE ( 'NONE', #77, #132, #187, .T. ) ;
#36 = PERSON_AND_ORGANIZATION ( #203, #256 ) ;
#37 = APPROVAL_DATE_TIME ( #290, #266 ) ;
#38 = CC_DESIGN_DATE_AND_TIME_ASSIGNMENT ( #314, #163, ( #81 ) ) ;
#39 = CARTESIAN_POINT ( 'NONE',  ( -3.000000000000000000, 0.000000000000000000, 0.000000000000000000 ) ) ;
#40 = DATE_AND_TIME ( #171, #245 ) ;
#41 = EDGE_CURVE ( 'NONE', #80, #287, #100, .T. ) ;
#42 = LINE ( 'NONE', #98, #103 ) ;
#43 = AXIS2_PLACEMENT_3D ( 'NONE', #278, #109, #237 ) ;
#44 = APPROVAL_STATUS ( 'not_yet_approved' ) ;
#45 = CARTESIAN_POINT ( 'NONE',  ( 0.5000000000000008882, 0.000000000000000000, 7.500000000000000000 ) ) ;
#46 = FACE_OUTER_BOUND ( 'NONE', #137, .T. ) ;
#47 = EDGE_CURVE ( 'NONE', #34, #189, #88, .T. ) ;
#48 = AXIS2_PLACEMENT_3D ( 'NONE', #184, #4, #211 ) ;
#49 = PLANE ( 'NONE',  #218 ) ;
#50 = CYLINDRICAL_SURFACE ( 'NONE', #43, 7.499999999999998224 ) ;
#51 = CARTESIAN_POINT ( 'NONE',  ( 3.000000000000000000, 0.000000000000000000, 0.000000000000000000 ) ) ;
#52 = CARTESIAN_POINT ( 'NONE',  ( -0.5000000000000004441, 0.000000000000000000, 0.000000000000000000 ) ) ;
#53 = CC_DESIGN_PERSON_AND_ORGANIZATION_ASSIGNMENT ( #60, #95, ( #54 ) ) ;
#54 = PRODUCT_DEFINITION_FORMATION_WITH_SPECIFIED_SOURCE ( 'ANY', '', #176, .NOT_KNOWN. ) ;
#55 = DIRECTION ( 'NONE',  ( 0.000000000000000000, 0.000000000000000000, 1.000000000000000000 ) ) ;
#56 = ORIENTED_EDGE ( 'NONE', *, *, #47, .F. ) ;
#57 = DIRECTION ( 'NONE',  ( 0.000000000000000000, 0.000000000000000000, 1.000000000000000000 ) ) ;
#58 = ORIENTED_EDGE ( 'NONE', *, *, #135, .F. ) ;
#59 = ORIENTED_EDGE ( 'NONE', *, *, #68, .T. ) ;
#60 = PERSON_AND_ORGANIZATION ( #203, #256 ) ;
#61 = ORIENTED_EDGE ( 'NONE', *, *, #79, .F. ) ;
#62 = CALENDAR_DATE ( 2021, 5, 1 ) ;
#63 = VERTEX_POINT ( 'NONE', #200 ) ;
#64 = CARTESIAN_POINT ( 'NONE',  ( -1.614212418857619014, 1.555301434917138433E-15, -12.69999999999999929 ) ) ;
#65 = APPROVAL_ROLE ( '' ) ;
#66 = LINE ( 'NONE', #64, #158 ) ;
#67 = APPROVAL_PERSON_ORGANIZATION ( #242, #115, #87 ) ;
#68 = EDGE_CURVE ( 'NONE', #9, #63, #175, .T. ) ;
#69 = DIRECTION ( 'NONE',  ( 0.000000000000000000, 0.000000000000000000, 1.000000000000000000 ) ) ;
#70 = EDGE_CURVE ( 'NONE', #281, #34, #42, .T. ) ;
#71 = DIRECTION ( 'NONE',  ( 1.000000000000000000, 0.000000000000000000, 0.000000000000000000 ) ) ;
#72 = CARTESIAN_POINT ( 'NONE',  ( -3.000000000000000000, 0.000000000000000000, 0.000000000000000000 ) ) ;
#73 = CIRCLE ( 'NONE', #11, 7.500000000000000000 ) ;
#74 = CIRCLE ( 'NONE', #159, 12.69999999999999929 ) ;
#75 = EDGE_CURVE ( 'NONE', #241, #281, #252, .T. ) ;
#76 = CARTESIAN_POINT ( 'NONE',  ( 0.5000000000000008882, 0.000000000000000000, 0.000000000000000000 ) ) ;
#77 = VERTEX_POINT ( 'NONE', #329 ) ;
#78 = CARTESIAN_POINT ( 'NONE',  ( -0.5000000000000004441, 0.000000000000000000, 0.000000000000000000 ) ) ;
#79 = EDGE_CURVE ( 'NONE', #241, #189, #66, .T. ) ;
#80 = VERTEX_POINT ( 'NONE', #170 ) ;
#81 = PRODUCT_DEFINITION ( 'UNKNOWN', '', #54, #303 ) ;
#82 = AXIS2_PLACEMENT_3D ( 'NONE', #117, #219, #93 ) ;
#83 = CARTESIAN_POINT ( 'NONE',  ( 0.5000000000000008882, 9.184850993605147944E-16, -7.500000000000000000 ) ) ;
#84 = CARTESIAN_POINT ( 'NONE',  ( -3.000000000000000000, 0.000000000000000000, 12.69999999999999929 ) ) ;
#85 = APPROVAL_DATE_TIME ( #32, #22 ) ;
#86 = EDGE_LOOP ( 'NONE', ( #31, #107 ) ) ;
#87 = APPROVAL_ROLE ( '' ) ;
#88 = CIRCLE ( 'NONE', #23, 12.69999999999999929 ) ;
#89 = EDGE_CURVE ( 'NONE', #63, #243, #10, .T. ) ;
#90 = ORIENTED_EDGE ( 'NONE', *, *, #135, .T. ) ;
#91 = PERSON_AND_ORGANIZATION ( #203, #256 ) ;
#92 = EDGE_LOOP ( 'NONE', ( #26, #164 ) ) ;
#93 = DIRECTION ( 'NONE',  ( 1.000000000000000000, 0.000000000000000000, 0.000000000000000000 ) ) ;
#94 = DIRECTION ( 'NONE',  ( -1.000000000000000000, -0.000000000000000000, -0.000000000000000000 ) ) ;
#95 = PERSON_AND_ORGANIZATION_ROLE ( 'creator' ) ;
#96 = CARTESIAN_POINT ( 'NONE',  ( -1.614212418857619014, 0.000000000000000000, 0.000000000000000000 ) ) ;
#97 = AXIS2_PLACEMENT_3D ( 'NONE', #105, #307, #27 ) ;
#98 = CARTESIAN_POINT ( 'NONE',  ( -1.614212418857619014, 0.000000000000000000, 12.69999999999999929 ) ) ;
#99 = ADVANCED_FACE ( 'NONE', ( #277 ), #124, .F. ) ;
#100 = LINE ( 'NONE', #195, #232 ) ;
#101 = UNCERTAINTY_MEASURE_WITH_UNIT (LENGTH_MEASURE( 1.000000000000000082E-05 ), #231, 'distance_accuracy_value', 'NONE');
#102 = CYLINDRICAL_SURFACE ( 'NONE', #30, 12.69999999999999929 ) ;
#103 = VECTOR ( 'NONE', #220, 1000.000000000000000 ) ;
#104 = FACE_OUTER_BOUND ( 'NONE', #318, .T. ) ;
#105 = CARTESIAN_POINT ( 'NONE',  ( 3.000000000000000000, 12.69999999999999929, 0.000000000000000000 ) ) ;
#106 = DIRECTION ( 'NONE',  ( -1.000000000000000000, -0.000000000000000000, -0.000000000000000000 ) ) ;
#107 = ORIENTED_EDGE ( 'NONE', *, *, #125, .T. ) ;
#108 = ORIENTED_EDGE ( 'NONE', *, *, #75, .F. ) ;
#109 = DIRECTION ( 'NONE',  ( -1.000000000000000000, -0.000000000000000000, -0.000000000000000000 ) ) ;
#110 = EDGE_LOOP ( 'NONE', ( #315, #260 ) ) ;
#111 = DIRECTION ( 'NONE',  ( -1.000000000000000000, -0.000000000000000000, -0.000000000000000000 ) ) ;
#112 = APPROVAL_ROLE ( '' ) ;
#113 = ORIENTED_EDGE ( 'NONE', *, *, #240, .F. ) ;
#114 = APPLICATION_PROTOCOL_DEFINITION ( 'international standard', 'config_control_design', 1994, #276 ) ;
#115 = APPROVAL ( #14, 'UNSPECIFIED' ) ;
#116 = ORIENTED_EDGE ( 'NONE', *, *, #70, .F. ) ;
#117 = CARTESIAN_POINT ( 'NONE',  ( 0.000000000000000000, 0.000000000000000000, 0.000000000000000000 ) ) ;
#118 = AXIS2_PLACEMENT_3D ( 'NONE', #210, #153, #251 ) ;
#119 = CARTESIAN_POINT ( 'NONE',  ( -1.614212418857619014, 0.000000000000000000, 0.000000000000000000 ) ) ;
#120 = PERSON_AND_ORGANIZATION_ROLE ( 'design_owner' ) ;
#121 = APPROVAL_STATUS ( 'not_yet_approved' ) ;
#122 = DIRECTION ( 'NONE',  ( -1.000000000000000000, -0.000000000000000000, -0.000000000000000000 ) ) ;
#123 = APPROVAL_PERSON_ORGANIZATION ( #297, #266, #65 ) ;
#124 = CYLINDRICAL_SURFACE ( 'NONE', #270, 7.499999999999998224 ) ;
#125 = EDGE_CURVE ( 'NONE', #80, #77, #20, .T. ) ;
#126 = DIRECTION ( 'NONE',  ( -1.000000000000000000, -0.000000000000000000, -0.000000000000000000 ) ) ;
#127 = FACE_OUTER_BOUND ( 'NONE', #313, .T. ) ;
#128 = CARTESIAN_POINT ( 'NONE',  ( -1.614212418857619014, 0.000000000000000000, 0.000000000000000000 ) ) ;
#129 = AXIS2_PLACEMENT_3D ( 'NONE', #78, #161, #206 ) ;
#130 = CC_DESIGN_PERSON_AND_ORGANIZATION_ASSIGNMENT ( #295, #221, ( #54 ) ) ;
#131 = ADVANCED_FACE ( 'NONE', ( #46 ), #102, .T. ) ;
#132 = VERTEX_POINT ( 'NONE', #45 ) ;
#133 = DIRECTION ( 'NONE',  ( -1.000000000000000000, -0.000000000000000000, -0.000000000000000000 ) ) ;
#134 = VERTEX_POINT ( 'NONE', #15 ) ;
#135 = EDGE_CURVE ( 'NONE', #243, #63, #324, .T. ) ;
#136 = DIRECTION ( 'NONE',  ( -1.000000000000000000, -0.000000000000000000, -0.000000000000000000 ) ) ;
#137 = EDGE_LOOP ( 'NONE', ( #208, #309, #56, #116 ) ) ;
#138 = CC_DESIGN_SECURITY_CLASSIFICATION ( #254, ( #54 ) ) ;
#139 = ORIENTED_EDGE ( 'NONE', *, *, #35, .T. ) ;
#140 = COORDINATED_UNIVERSAL_TIME_OFFSET ( 8, 0, .AHEAD. ) ;
#141 = ORIENTED_EDGE ( 'NONE', *, *, #202, .F. ) ;
#142 = ADVANCED_BREP_SHAPE_REPRESENTATION ( 'QM-CAQWP-15-450-650-M', ( #183, #82 ), #204 ) ;
#143 = LINE ( 'NONE', #12, #178 ) ;
#144 = APPLICATION_PROTOCOL_DEFINITION ( 'international standard', 'config_control_design', 1994, #255 ) ;
#145 = AXIS2_PLACEMENT_3D ( 'NONE', #52, #230, #234 ) ;
#146 = ADVANCED_FACE ( 'NONE', ( #302 ), #150, .F. ) ;
#147 = DIRECTION ( 'NONE',  ( -1.000000000000000000, -0.000000000000000000, -0.000000000000000000 ) ) ;
#148 = DATE_AND_TIME ( #194, #17 ) ;
#149 = FACE_OUTER_BOUND ( 'NONE', #92, .T. ) ;
#150 = CYLINDRICAL_SURFACE ( 'NONE', #24, 7.499999999999998224 ) ;
#151 = AXIS2_PLACEMENT_3D ( 'NONE', #39, #268, #323 ) ;
#152 = DIRECTION ( 'NONE',  ( -1.000000000000000000, -0.000000000000000000, -0.000000000000000000 ) ) ;
#153 = DIRECTION ( 'NONE',  ( -1.000000000000000000, 0.000000000000000000, -0.000000000000000000 ) ) ;
#154 = CARTESIAN_POINT ( 'NONE',  ( -3.000000000000000000, 9.184850993605147944E-16, -7.500000000000000000 ) ) ;
#155 = EDGE_LOOP ( 'NONE', ( #233, #141 ) ) ;
#156 = EDGE_CURVE ( 'NONE', #134, #243, #143, .T. ) ;
#157 = VECTOR ( 'NONE', #111, 1000.000000000000000 ) ;
#158 = VECTOR ( 'NONE', #94, 1000.000000000000000 ) ;
#159 = AXIS2_PLACEMENT_3D ( 'NONE', #330, #180, #5 ) ;
#160 = ORIENTED_EDGE ( 'NONE', *, *, #68, .F. ) ;
#161 = DIRECTION ( 'NONE',  ( 1.000000000000000000, 0.000000000000000000, 0.000000000000000000 ) ) ;
#162 = ORIENTED_EDGE ( 'NONE', *, *, #41, .T. ) ;
#163 = DATE_TIME_ROLE ( 'creation_date' ) ;
#164 = ORIENTED_EDGE ( 'NONE', *, *, #317, .F. ) ;
#165 = ADVANCED_FACE ( 'NONE', ( #149 ), #49, .F. ) ;
#166 = AXIS2_PLACEMENT_3D ( 'NONE', #128, #133, #332 ) ;
#167 = SHAPE_DEFINITION_REPRESENTATION ( #294, #142 ) ;
#168 = ORIENTED_EDGE ( 'NONE', *, *, #305, .F. ) ;
#169 = EDGE_CURVE ( 'NONE', #132, #287, #73, .T. ) ;
#170 = CARTESIAN_POINT ( 'NONE',  ( 3.000000000000000000, 9.184850993605144000E-16, -7.499999999999997335 ) ) ;
#171 = CALENDAR_DATE ( 2021, 5, 1 ) ;
#172 = CC_DESIGN_DATE_AND_TIME_ASSIGNMENT ( #40, #192, ( #254 ) ) ;
#173 = COORDINATED_UNIVERSAL_TIME_OFFSET ( 8, 0, .AHEAD. ) ;
#174 = LOCAL_TIME ( 10, 44, 22.00000000000000000, #140 ) ;
#175 = LINE ( 'NONE', #296, #283 ) ;
#176 = PRODUCT ( 'QM-CAQWP-15-450-650-M', 'QM-CAQWP-15-450-650-M', '', ( #267 ) ) ;
#177 = DIRECTION ( 'NONE',  ( 0.000000000000000000, 0.000000000000000000, 1.000000000000000000 ) ) ;
#178 = VECTOR ( 'NONE', #299, 1000.000000000000000 ) ;
#179 = DIRECTION ( 'NONE',  ( -1.000000000000000000, -0.000000000000000000, -0.000000000000000000 ) ) ;
#180 = DIRECTION ( 'NONE',  ( -1.000000000000000000, -0.000000000000000000, -0.000000000000000000 ) ) ;
#181 = APPROVAL_PERSON_ORGANIZATION ( #91, #22, #112 ) ;
#182 = ORIENTED_EDGE ( 'NONE', *, *, #75, .T. ) ;
#183 = MANIFOLD_SOLID_BREP ( 'Ðý×', #262 ) ;
#184 = CARTESIAN_POINT ( 'NONE',  ( -3.000000000000000000, 7.500000000000000000, 0.000000000000000000 ) ) ;
#185 = AXIS2_PLACEMENT_3D ( 'NONE', #51, #179, #253 ) ;
#186 = CYLINDRICAL_SURFACE ( 'NONE', #25, 7.499999999999998224 ) ;
#187 = LINE ( 'NONE', #6, #157 ) ;
#188 = ADVANCED_FACE ( 'NONE', ( #19 ), #280, .T. ) ;
#189 = VERTEX_POINT ( 'NONE', #312 ) ;
#190 = COORDINATED_UNIVERSAL_TIME_OFFSET ( 8, 0, .AHEAD. ) ;
#191 = ORIENTED_EDGE ( 'NONE', *, *, #89, .T. ) ;
#192 = DATE_TIME_ROLE ( 'classification_date' ) ;
#193 = ORIENTED_EDGE ( 'NONE', *, *, #202, .T. ) ;
#194 = CALENDAR_DATE ( 2021, 5, 1 ) ;
#195 = CARTESIAN_POINT ( 'NONE',  ( -1.614212418857619014, 9.184850993605145972E-16, -7.499999999999998224 ) ) ;
#196 = PERSON_AND_ORGANIZATION_ROLE ( 'classification_officer' ) ;
#197 = DIRECTION ( 'NONE',  ( 0.000000000000000000, 0.000000000000000000, 1.000000000000000000 ) ) ;
#198 = CIRCLE ( 'NONE', #331, 12.69999999999999929 ) ;
#199 = CARTESIAN_POINT ( 'NONE',  ( -3.000000000000000000, 0.000000000000000000, 0.000000000000000000 ) ) ;
#200 = CARTESIAN_POINT ( 'NONE',  ( -3.000000000000000000, 0.000000000000000000, 7.500000000000000000 ) ) ;
#201 = DIRECTION ( 'NONE',  ( 0.000000000000000000, 0.000000000000000000, 1.000000000000000000 ) ) ;
#202 = EDGE_CURVE ( 'NONE', #287, #132, #326, .T. ) ;
#203 = PERSON ( 'UNSPECIFIED', 'UNSPECIFIED', 'UNSPECIFIED', ('UNSPECIFIED'), ('UNSPECIFIED'), ('UNSPECIFIED') ) ;
#204 =( GEOMETRIC_REPRESENTATION_CONTEXT ( 3 ) GLOBAL_UNCERTAINTY_ASSIGNED_CONTEXT ( ( #101 ) ) GLOBAL_UNIT_ASSIGNED_CONTEXT ( ( #231, #29, #207 ) ) REPRESENTATION_CONTEXT ( 'NONE', 'WORKASPACE' ) );
#205 = FACE_OUTER_BOUND ( 'NONE', #155, .T. ) ;
#206 = DIRECTION ( 'NONE',  ( 0.000000000000000000, 0.000000000000000000, -1.000000000000000000 ) ) ;
#207 =( NAMED_UNIT ( * ) SI_UNIT ( $, .STERADIAN. ) SOLID_ANGLE_UNIT ( ) );
#208 = ORIENTED_EDGE ( 'NONE', *, *, #305, .T. ) ;
#209 = ORIENTED_EDGE ( 'NONE', *, *, #156, .F. ) ;
#210 = CARTESIAN_POINT ( 'NONE',  ( 0.5000000000000004441, 7.500000000000000000, 0.000000000000000000 ) ) ;
#211 = DIRECTION ( 'NONE',  ( 0.000000000000000000, 0.000000000000000000, -1.000000000000000000 ) ) ;
#212 = CC_DESIGN_APPROVAL ( #22, ( #81 ) ) ;
#213 = CARTESIAN_POINT ( 'NONE',  ( 3.000000000000000000, 1.555301434917138433E-15, -12.69999999999999929 ) ) ;
#214 = EDGE_LOOP ( 'NONE', ( #7, #162, #193, #310 ) ) ;
#215 = EDGE_CURVE ( 'NONE', #189, #34, #198, .T. ) ;
#216 = CARTESIAN_POINT ( 'NONE',  ( -0.5000000000000004441, 0.000000000000000000, 7.499999999999998224 ) ) ;
#217 = ORIENTED_EDGE ( 'NONE', *, *, #89, .F. ) ;
#218 = AXIS2_PLACEMENT_3D ( 'NONE', #248, #71, #16 ) ;
#219 = DIRECTION ( 'NONE',  ( 0.000000000000000000, 0.000000000000000000, 1.000000000000000000 ) ) ;
#220 = DIRECTION ( 'NONE',  ( -1.000000000000000000, -0.000000000000000000, -0.000000000000000000 ) ) ;
#221 = PERSON_AND_ORGANIZATION_ROLE ( 'design_supplier' ) ;
#222 = CARTESIAN_POINT ( 'NONE',  ( -3.000000000000000000, 0.000000000000000000, 0.000000000000000000 ) ) ;
#223 = ADVANCED_FACE ( 'NONE', ( #334 ), #186, .F. ) ;
#224 = CARTESIAN_POINT ( 'NONE',  ( 0.5000000000000008882, 0.000000000000000000, 0.000000000000000000 ) ) ;
#225 = DIRECTION ( 'NONE',  ( -1.000000000000000000, -0.000000000000000000, -0.000000000000000000 ) ) ;
#226 = CARTESIAN_POINT ( 'NONE',  ( 3.000000000000000000, 0.000000000000000000, 0.000000000000000000 ) ) ;
#227 = PLANE ( 'NONE',  #118 ) ;
#228 = AXIS2_PLACEMENT_3D ( 'NONE', #199, #301, #327 ) ;
#229 = AXIS2_PLACEMENT_3D ( 'NONE', #76, #136, #57 ) ;
#230 = DIRECTION ( 'NONE',  ( 1.000000000000000000, 0.000000000000000000, 0.000000000000000000 ) ) ;
#231 =( LENGTH_UNIT ( ) NAMED_UNIT ( * ) SI_UNIT ( .MILLI., .METRE. ) );
#232 = VECTOR ( 'NONE', #147, 1000.000000000000000 ) ;
#233 = ORIENTED_EDGE ( 'NONE', *, *, #169, .F. ) ;
#234 = DIRECTION ( 'NONE',  ( 0.000000000000000000, 0.000000000000000000, -1.000000000000000000 ) ) ;
#235 = FACE_BOUND ( 'NONE', #238, .T. ) ;
#236 = PRODUCT_RELATED_PRODUCT_CATEGORY ( 'detail', '', ( #176 ) ) ;
#237 = DIRECTION ( 'NONE',  ( 0.000000000000000000, 0.000000000000000000, 1.000000000000000000 ) ) ;
#238 = EDGE_LOOP ( 'NONE', ( #217, #58 ) ) ;
#239 = CC_DESIGN_APPROVAL ( #266, ( #254 ) ) ;
#240 = EDGE_CURVE ( 'NONE', #77, #80, #284, .T. ) ;
#241 = VERTEX_POINT ( 'NONE', #213 ) ;
#242 = PERSON_AND_ORGANIZATION ( #203, #256 ) ;
#243 = VERTEX_POINT ( 'NONE', #154 ) ;
#244 = DIRECTION ( 'NONE',  ( -1.000000000000000000, -0.000000000000000000, -0.000000000000000000 ) ) ;
#245 = LOCAL_TIME ( 10, 44, 22.00000000000000000, #190 ) ;
#246 = PERSON_AND_ORGANIZATION_ROLE ( 'creator' ) ;
#247 = DIRECTION ( 'NONE',  ( 0.000000000000000000, 0.000000000000000000, 1.000000000000000000 ) ) ;
#248 = CARTESIAN_POINT ( 'NONE',  ( -0.5000000000000004441, 7.500000000000000000, 0.000000000000000000 ) ) ;
#249 = DIRECTION ( 'NONE',  ( -1.000000000000000000, -0.000000000000000000, -0.000000000000000000 ) ) ;
#250 = CARTESIAN_POINT ( 'NONE',  ( -1.614212418857619014, 0.000000000000000000, 0.000000000000000000 ) ) ;
#251 = DIRECTION ( 'NONE',  ( -0.000000000000000000, 0.000000000000000000, 1.000000000000000000 ) ) ;
#252 = CIRCLE ( 'NONE', #275, 12.69999999999999929 ) ;
#253 = DIRECTION ( 'NONE',  ( 0.000000000000000000, 0.000000000000000000, 1.000000000000000000 ) ) ;
#254 = SECURITY_CLASSIFICATION ( '', '', #319 ) ;
#255 = APPLICATION_CONTEXT ( 'configuration controlled 3d designs of mechanical parts and assemblies' ) ;
#256 = ORGANIZATION ( 'UNSPECIFIED', 'UNSPECIFIED', '' ) ;
#257 = ORIENTED_EDGE ( 'NONE', *, *, #70, .T. ) ;
#258 = DIRECTION ( 'NONE',  ( 0.000000000000000000, 0.000000000000000000, 1.000000000000000000 ) ) ;
#259 = ADVANCED_FACE ( 'NONE', ( #127 ), #50, .F. ) ;
#260 = ORIENTED_EDGE ( 'NONE', *, *, #215, .T. ) ;
#261 = ORIENTED_EDGE ( 'NONE', *, *, #298, .T. ) ;
#262 = CLOSED_SHELL ( 'NONE', ( #131, #146, #99, #274, #259, #223, #18, #188, #311, #165 ) ) ;
#263 = ORIENTED_EDGE ( 'NONE', *, *, #169, .T. ) ;
#264 = COORDINATED_UNIVERSAL_TIME_OFFSET ( 8, 0, .AHEAD. ) ;
#265 = FACE_OUTER_BOUND ( 'NONE', #110, .T. ) ;
#266 = APPROVAL ( #121, 'UNSPECIFIED' ) ;
#267 = MECHANICAL_CONTEXT ( 'NONE', #255, 'mechanical' ) ;
#268 = DIRECTION ( 'NONE',  ( -1.000000000000000000, -0.000000000000000000, -0.000000000000000000 ) ) ;
#269 = APPROVAL_DATE_TIME ( #148, #115 ) ;
#270 = AXIS2_PLACEMENT_3D ( 'NONE', #250, #122, #247 ) ;
#271 = CALENDAR_DATE ( 2021, 5, 1 ) ;
#272 = DIRECTION ( 'NONE',  ( 0.000000000000000000, 0.000000000000000000, 1.000000000000000000 ) ) ;
#273 = DIRECTION ( 'NONE',  ( 0.000000000000000000, 0.000000000000000000, 1.000000000000000000 ) ) ;
#274 = ADVANCED_FACE ( 'NONE', ( #205 ), #227, .F. ) ;
#275 = AXIS2_PLACEMENT_3D ( 'NONE', #226, #321, #201 ) ;
#276 = APPLICATION_CONTEXT ( 'configuration controlled 3d designs of mechanical parts and assemblies' ) ;
#277 = FACE_OUTER_BOUND ( 'NONE', #214, .T. ) ;
#278 = CARTESIAN_POINT ( 'NONE',  ( -1.614212418857619014, 0.000000000000000000, 0.000000000000000000 ) ) ;
#279 = CARTESIAN_POINT ( 'NONE',  ( -1.614212418857619014, 0.000000000000000000, 0.000000000000000000 ) ) ;
#280 = CYLINDRICAL_SURFACE ( 'NONE', #166, 12.69999999999999929 ) ;
#281 = VERTEX_POINT ( 'NONE', #286 ) ;
#282 = LOCAL_TIME ( 10, 44, 22.00000000000000000, #264 ) ;
#283 = VECTOR ( 'NONE', #225, 1000.000000000000000 ) ;
#284 = CIRCLE ( 'NONE', #185, 7.499999999999997335 ) ;
#285 = ORIENTED_EDGE ( 'NONE', *, *, #156, .T. ) ;
#286 = CARTESIAN_POINT ( 'NONE',  ( 3.000000000000000000, 0.000000000000000000, 12.69999999999999929 ) ) ;
#287 = VERTEX_POINT ( 'NONE', #83 ) ;
#288 = COORDINATED_UNIVERSAL_TIME_OFFSET ( 8, 0, .AHEAD. ) ;
#289 = ORIENTED_EDGE ( 'NONE', *, *, #317, .T. ) ;
#290 = DATE_AND_TIME ( #271, #300 ) ;
#291 = EDGE_LOOP ( 'NONE', ( #209, #289, #59, #191 ) ) ;
#292 = CC_DESIGN_PERSON_AND_ORGANIZATION_ASSIGNMENT ( #8, #120, ( #176 ) ) ;
#293 = EDGE_LOOP ( 'NONE', ( #61, #182, #257, #28 ) ) ;
#294 = PRODUCT_DEFINITION_SHAPE ( 'NONE', 'NONE',  #81 ) ;
#295 = PERSON_AND_ORGANIZATION ( #203, #256 ) ;
#296 = CARTESIAN_POINT ( 'NONE',  ( -1.614212418857619014, 0.000000000000000000, 7.499999999999998224 ) ) ;
#297 = PERSON_AND_ORGANIZATION ( #203, #256 ) ;
#298 = EDGE_CURVE ( 'NONE', #9, #134, #306, .T. ) ;
#299 = DIRECTION ( 'NONE',  ( -1.000000000000000000, -0.000000000000000000, -0.000000000000000000 ) ) ;
#300 = LOCAL_TIME ( 10, 44, 22.00000000000000000, #173 ) ;
#301 = DIRECTION ( 'NONE',  ( -1.000000000000000000, -0.000000000000000000, -0.000000000000000000 ) ) ;
#302 = FACE_OUTER_BOUND ( 'NONE', #335, .T. ) ;
#303 = DESIGN_CONTEXT ( 'detailed design', #276, 'design' ) ;
#304 = CARTESIAN_POINT ( 'NONE',  ( 3.000000000000000000, 0.000000000000000000, 0.000000000000000000 ) ) ;
#305 = EDGE_CURVE ( 'NONE', #281, #241, #74, .T. ) ;
#306 = CIRCLE ( 'NONE', #145, 7.499999999999998224 ) ;
#307 = DIRECTION ( 'NONE',  ( -1.000000000000000000, 0.000000000000000000, -0.000000000000000000 ) ) ;
#308 = FACE_BOUND ( 'NONE', #86, .T. ) ;
#309 = ORIENTED_EDGE ( 'NONE', *, *, #79, .T. ) ;
#310 = ORIENTED_EDGE ( 'NONE', *, *, #35, .F. ) ;
#311 = ADVANCED_FACE ( 'NONE', ( #104, #308 ), #21, .F. ) ;
#312 = CARTESIAN_POINT ( 'NONE',  ( -3.000000000000000000, 1.555301434917138433E-15, -12.69999999999999929 ) ) ;
#313 = EDGE_LOOP ( 'NONE', ( #320, #113, #139, #263 ) ) ;
#314 = DATE_AND_TIME ( #316, #282 ) ;
#315 = ORIENTED_EDGE ( 'NONE', *, *, #47, .T. ) ;
#316 = CALENDAR_DATE ( 2021, 5, 1 ) ;
#317 = EDGE_CURVE ( 'NONE', #134, #9, #13, .T. ) ;
#318 = EDGE_LOOP ( 'NONE', ( #168, #108 ) ) ;
#319 = SECURITY_CLASSIFICATION_LEVEL ( 'unclassified' ) ;
#320 = ORIENTED_EDGE ( 'NONE', *, *, #41, .F. ) ;
#321 = DIRECTION ( 'NONE',  ( -1.000000000000000000, -0.000000000000000000, -0.000000000000000000 ) ) ;
#322 = PERSON_AND_ORGANIZATION ( #203, #256 ) ;
#323 = DIRECTION ( 'NONE',  ( 0.000000000000000000, 0.000000000000000000, 1.000000000000000000 ) ) ;
#324 = CIRCLE ( 'NONE', #151, 7.500000000000000000 ) ;
#325 = DIRECTION ( 'NONE',  ( -1.000000000000000000, -0.000000000000000000, -0.000000000000000000 ) ) ;
#326 = CIRCLE ( 'NONE', #229, 7.500000000000000000 ) ;
#327 = DIRECTION ( 'NONE',  ( 0.000000000000000000, 0.000000000000000000, 1.000000000000000000 ) ) ;
#328 = CC_DESIGN_PERSON_AND_ORGANIZATION_ASSIGNMENT ( #322, #196, ( #254 ) ) ;
#329 = CARTESIAN_POINT ( 'NONE',  ( 3.000000000000000000, 0.000000000000000000, 7.499999999999997335 ) ) ;
#330 = CARTESIAN_POINT ( 'NONE',  ( 3.000000000000000000, 0.000000000000000000, 0.000000000000000000 ) ) ;
#331 = AXIS2_PLACEMENT_3D ( 'NONE', #72, #2, #55 ) ;
#332 = DIRECTION ( 'NONE',  ( 0.000000000000000000, 0.000000000000000000, 1.000000000000000000 ) ) ;
#333 = CC_DESIGN_PERSON_AND_ORGANIZATION_ASSIGNMENT ( #36, #246, ( #81 ) ) ;
#334 = FACE_OUTER_BOUND ( 'NONE', #291, .T. ) ;
#335 = EDGE_LOOP ( 'NONE', ( #261, #285, #90, #160 ) ) ;
ENDSEC;
END-ISO-10303-21;
